ISO-10303-21;
HEADER;
/* Generated by software containing ST-Developer
 * from STEP Tools, Inc. (www.steptools.com) 
 */

FILE_DESCRIPTION(
/* description */ (''),
/* implementation_level */ '2;1');

FILE_NAME(
/* name */ 'TA160.dxf',
/* time_stamp */ '2012-11-23T18:02:25+08:00',
/* author */ (''),
/* organization */ (''),
/* preprocessor_version */ 'ST-DEVELOPER v9',
/* originating_system */ 'UGS - NX 4.0',
/* authorisation */ '');

FILE_SCHEMA (('CONFIG_CONTROL_DESIGN'));
ENDSEC;

DATA;
#10=SHAPE_REPRESENTATION_RELATIONSHIP('None',
'relationship between Admi820Fxqjt-None and Admi820Fxqjt-None',#94,#11);
#11=ADVANCED_BREP_SHAPE_REPRESENTATION('Admi820Fxqjt-None',(#95),#559);
#12=CC_DESIGN_APPROVAL(#24,(#82));
#13=CC_DESIGN_APPROVAL(#25,(#84));
#14=CC_DESIGN_APPROVAL(#26,(#31));
#15=APPROVAL_PERSON_ORGANIZATION(#69,#24,#18);
#16=APPROVAL_PERSON_ORGANIZATION(#70,#25,#19);
#17=APPROVAL_PERSON_ORGANIZATION(#71,#26,#20);
#18=APPROVAL_ROLE('approver');
#19=APPROVAL_ROLE('approver');
#20=APPROVAL_ROLE('approver');
#21=APPROVAL_DATE_TIME(#39,#24);
#22=APPROVAL_DATE_TIME(#40,#25);
#23=APPROVAL_DATE_TIME(#41,#26);
#24=APPROVAL(#27,' ');
#25=APPROVAL(#28,' ');
#26=APPROVAL(#29,' ');
#27=APPROVAL_STATUS('not_yet_approved');
#28=APPROVAL_STATUS('not_yet_approved');
#29=APPROVAL_STATUS('not_yet_approved');
#30=CC_DESIGN_SECURITY_CLASSIFICATION(#31,(#84));
#31=SECURITY_CLASSIFICATION(' ',' ',#32);
#32=SECURITY_CLASSIFICATION_LEVEL('confidential');
#33=CC_DESIGN_DATE_AND_TIME_ASSIGNMENT(#37,#35,(#82));
#34=CC_DESIGN_DATE_AND_TIME_ASSIGNMENT(#38,#36,(#31));
#35=DATE_TIME_ROLE('creation_date');
#36=DATE_TIME_ROLE('classification_date');
#37=DATE_AND_TIME(#52,#42);
#38=DATE_AND_TIME(#53,#43);
#39=DATE_AND_TIME(#54,#44);
#40=DATE_AND_TIME(#55,#45);
#41=DATE_AND_TIME(#56,#46);
#42=LOCAL_TIME(0,0,0.,#47);
#43=LOCAL_TIME(0,0,0.,#48);
#44=LOCAL_TIME(0,0,0.,#49);
#45=LOCAL_TIME(0,0,0.,#50);
#46=LOCAL_TIME(0,0,0.,#51);
#47=COORDINATED_UNIVERSAL_TIME_OFFSET(0,0,.BEHIND.);
#48=COORDINATED_UNIVERSAL_TIME_OFFSET(0,0,.BEHIND.);
#49=COORDINATED_UNIVERSAL_TIME_OFFSET(0,0,.BEHIND.);
#50=COORDINATED_UNIVERSAL_TIME_OFFSET(0,0,.BEHIND.);
#51=COORDINATED_UNIVERSAL_TIME_OFFSET(0,0,.BEHIND.);
#52=CALENDAR_DATE(0,1,1);
#53=CALENDAR_DATE(0,1,1);
#54=CALENDAR_DATE(0,1,1);
#55=CALENDAR_DATE(0,1,1);
#56=CALENDAR_DATE(0,1,1);
#57=CC_DESIGN_PERSON_AND_ORGANIZATION_ASSIGNMENT(#65,#61,(#82,#84));
#58=CC_DESIGN_PERSON_AND_ORGANIZATION_ASSIGNMENT(#66,#62,(#86));
#59=CC_DESIGN_PERSON_AND_ORGANIZATION_ASSIGNMENT(#67,#63,(#84));
#60=CC_DESIGN_PERSON_AND_ORGANIZATION_ASSIGNMENT(#68,#64,(#31));
#61=PERSON_AND_ORGANIZATION_ROLE('creator');
#62=PERSON_AND_ORGANIZATION_ROLE('design_owner');
#63=PERSON_AND_ORGANIZATION_ROLE('design_supplier');
#64=PERSON_AND_ORGANIZATION_ROLE('classification_officer');
#65=PERSON_AND_ORGANIZATION(#79,#72);
#66=PERSON_AND_ORGANIZATION(#79,#73);
#67=PERSON_AND_ORGANIZATION(#79,#74);
#68=PERSON_AND_ORGANIZATION(#79,#75);
#69=PERSON_AND_ORGANIZATION(#79,#76);
#70=PERSON_AND_ORGANIZATION(#79,#77);
#71=PERSON_AND_ORGANIZATION(#79,#78);
#72=ORGANIZATION(' ',' ',' ');
#73=ORGANIZATION(' ',' ',' ');
#74=ORGANIZATION(' ',' ',' ');
#75=ORGANIZATION(' ',' ',' ');
#76=ORGANIZATION(' ',' ',' ');
#77=ORGANIZATION(' ',' ',' ');
#78=ORGANIZATION(' ',' ',' ');
#79=PERSON(' ',' ',' ',(' '),$,$);
#80=SHAPE_DEFINITION_REPRESENTATION(#81,#94);
#81=PRODUCT_DEFINITION_SHAPE('','',#82);
#82=PRODUCT_DEFINITION(' ','',#84,#83);
#83=DESIGN_CONTEXT('',#93,'design');
#84=PRODUCT_DEFINITION_FORMATION_WITH_SPECIFIED_SOURCE(' ',' ',#86,.NOT_KNOWN.);
#85=PRODUCT_RELATED_PRODUCT_CATEGORY('detail','',(#86));
#86=PRODUCT('Admi820Fxqjt','Admi820Fxqjt',' ',(#91));
#87=PRODUCT_CATEGORY_RELATIONSHIP(' ',' ',#89,#90);
#88=PRODUCT_CATEGORY_RELATIONSHIP('','',#90,#85);
#89=PRODUCT_CATEGORY('part',' ');
#90=PRODUCT_CATEGORY(' ','');
#91=MECHANICAL_CONTEXT(' ',#93,'mechanical');
#92=APPLICATION_PROTOCOL_DEFINITION('international standard',
'config_control_design',1994,#93);
#93=APPLICATION_CONTEXT(
'configuration controlled 3D designs of mechanical parts and assemblies
');
#94=SHAPE_REPRESENTATION('Admi820Fxqjt-None',(#333),#559);
#95=MANIFOLD_SOLID_BREP('',#96);
#96=CLOSED_SHELL('',(#112,#113,#114,#115,#116,#117,#118,#119,#120,#121,#122,
#123,#124,#125,#126,#127,#128,#129,#130,#131,#132,#133));
#97=VERTEX_LOOP('',#284);
#98=CYLINDRICAL_SURFACE('',#345,7.5);
#99=CYLINDRICAL_SURFACE('',#350,24.5634079682457);
#100=CYLINDRICAL_SURFACE('',#354,32.5634079682456);
#101=CYLINDRICAL_SURFACE('',#360,6.56340796824562);
#102=CYLINDRICAL_SURFACE('',#364,7.0634079682455);
#103=CYLINDRICAL_SURFACE('',#374,7.49999999999999);
#104=PLANE('',#344);
#105=PLANE('',#348);
#106=PLANE('',#352);
#107=PLANE('',#356);
#108=PLANE('',#362);
#109=PLANE('',#373);
#110=SPHERICAL_SURFACE('',#338,20.);
#111=SPHERICAL_SURFACE('',#367,20.0000000000001);
#112=ADVANCED_FACE('',(#160,#144,#161,#162),#134,.T.);
#113=ADVANCED_FACE('',(#145),#110,.T.);
#114=ADVANCED_FACE('',(#146,#163),#135,.T.);
#115=ADVANCED_FACE('',(#147,#164),#136,.T.);
#116=ADVANCED_FACE('',(#148,#165),#104,.T.);
#117=ADVANCED_FACE('',(#166,#167),#98,.T.);
#118=ADVANCED_FACE('',(#168,#149),#105,.T.);
#119=ADVANCED_FACE('',(#169,#170),#99,.T.);
#120=ADVANCED_FACE('',(#171,#150),#106,.T.);
#121=ADVANCED_FACE('',(#172,#173),#100,.T.);
#122=ADVANCED_FACE('',(#151,#174),#137,.T.);
#123=ADVANCED_FACE('',(#152),#107,.T.);
#124=ADVANCED_FACE('',(#175,#153),#138,.F.);
#125=ADVANCED_FACE('',(#176,#177),#101,.F.);
#126=ADVANCED_FACE('',(#178,#154),#108,.F.);
#127=ADVANCED_FACE('',(#179,#180),#102,.F.);
#128=ADVANCED_FACE('',(#155,#181),#139,.F.);
#129=ADVANCED_FACE('',(#156),#111,.T.);
#130=ADVANCED_FACE('',(#157,#182),#140,.T.);
#131=ADVANCED_FACE('',(#158,#183),#141,.T.);
#132=ADVANCED_FACE('',(#159,#184),#109,.F.);
#133=ADVANCED_FACE('',(#185,#186),#103,.T.);
#134=CONICAL_SURFACE('',#336,31.7459464479033,20.0000000001394);
#135=CONICAL_SURFACE('',#340,11.,3.06102979941767);
#136=CONICAL_SURFACE('',#342,10.,44.9999999999985);
#137=CONICAL_SURFACE('',#355,31.7459464479033,20.0000000001394);
#138=CONICAL_SURFACE('',#358,6.56340796824562,59.9999999999998);
#139=CONICAL_SURFACE('',#365,7.0634079682455,45.0000000000064);
#140=CONICAL_SURFACE('',#369,11.,3.06102979941767);
#141=CONICAL_SURFACE('',#371,10.,45.);
#142=B_SPLINE_CURVE_WITH_KNOTS('',3,(#464,#465,#466,#467,#468,#469,#470,
#471,#472,#473,#474,#475,#476,#477,#478,#479,#480,#481),.UNSPECIFIED.,.T.,
.F.,(2,2,2,2,2,2,2,2,2,2,2),(-0.125,0.,0.125,0.25,0.375,0.5,0.625,0.75,0.875,
1.,1.125),.UNSPECIFIED.);
#143=B_SPLINE_CURVE_WITH_KNOTS('',3,(#483,#484,#485,#486,#487,#488,#489,
#490,#491,#492,#493,#494,#495,#496,#497,#498,#499,#500),.UNSPECIFIED.,.T.,
.F.,(2,2,2,2,2,2,2,2,2,2,2),(-0.125,0.,0.125000000000001,0.250000000000002,
0.375000000000001,0.500000000000001,0.625000000000001,0.75,0.875,1.,1.125),
.UNSPECIFIED.);
#144=FACE_OUTER_BOUND('',#188,.T.);
#145=FACE_OUTER_BOUND('',#191,.T.);
#146=FACE_OUTER_BOUND('',#192,.T.);
#147=FACE_OUTER_BOUND('',#194,.T.);
#148=FACE_OUTER_BOUND('',#196,.T.);
#149=FACE_OUTER_BOUND('',#201,.T.);
#150=FACE_OUTER_BOUND('',#205,.T.);
#151=FACE_OUTER_BOUND('',#208,.T.);
#152=FACE_OUTER_BOUND('',#210,.T.);
#153=FACE_OUTER_BOUND('',#211,.T.);
#154=FACE_OUTER_BOUND('',#215,.T.);
#155=FACE_OUTER_BOUND('',#218,.T.);
#156=FACE_OUTER_BOUND('',#220,.T.);
#157=FACE_OUTER_BOUND('',#221,.T.);
#158=FACE_OUTER_BOUND('',#223,.T.);
#159=FACE_OUTER_BOUND('',#225,.T.);
#160=FACE_BOUND('',#187,.T.);
#161=FACE_BOUND('',#189,.T.);
#162=FACE_BOUND('',#190,.T.);
#163=FACE_BOUND('',#193,.T.);
#164=FACE_BOUND('',#195,.T.);
#165=FACE_BOUND('',#197,.T.);
#166=FACE_BOUND('',#198,.T.);
#167=FACE_BOUND('',#199,.T.);
#168=FACE_BOUND('',#200,.T.);
#169=FACE_BOUND('',#202,.T.);
#170=FACE_BOUND('',#203,.T.);
#171=FACE_BOUND('',#204,.T.);
#172=FACE_BOUND('',#206,.T.);
#173=FACE_BOUND('',#207,.T.);
#174=FACE_BOUND('',#209,.T.);
#175=FACE_BOUND('',#97,.T.);
#176=FACE_BOUND('',#212,.T.);
#177=FACE_BOUND('',#213,.T.);
#178=FACE_BOUND('',#214,.T.);
#179=FACE_BOUND('',#216,.T.);
#180=FACE_BOUND('',#217,.T.);
#181=FACE_BOUND('',#219,.T.);
#182=FACE_BOUND('',#222,.T.);
#183=FACE_BOUND('',#224,.T.);
#184=FACE_BOUND('',#226,.T.);
#185=FACE_BOUND('',#227,.T.);
#186=FACE_BOUND('',#228,.T.);
#187=EDGE_LOOP('',(#229));
#188=EDGE_LOOP('',(#230));
#189=EDGE_LOOP('',(#231));
#190=EDGE_LOOP('',(#232));
#191=EDGE_LOOP('',(#233));
#192=EDGE_LOOP('',(#234));
#193=EDGE_LOOP('',(#235));
#194=EDGE_LOOP('',(#236));
#195=EDGE_LOOP('',(#237));
#196=EDGE_LOOP('',(#238));
#197=EDGE_LOOP('',(#239));
#198=EDGE_LOOP('',(#240));
#199=EDGE_LOOP('',(#241));
#200=EDGE_LOOP('',(#242));
#201=EDGE_LOOP('',(#243));
#202=EDGE_LOOP('',(#244));
#203=EDGE_LOOP('',(#245));
#204=EDGE_LOOP('',(#246));
#205=EDGE_LOOP('',(#247));
#206=EDGE_LOOP('',(#248));
#207=EDGE_LOOP('',(#249));
#208=EDGE_LOOP('',(#250));
#209=EDGE_LOOP('',(#251));
#210=EDGE_LOOP('',(#252));
#211=EDGE_LOOP('',(#253));
#212=EDGE_LOOP('',(#254));
#213=EDGE_LOOP('',(#255));
#214=EDGE_LOOP('',(#256));
#215=EDGE_LOOP('',(#257));
#216=EDGE_LOOP('',(#258));
#217=EDGE_LOOP('',(#259));
#218=EDGE_LOOP('',(#260));
#219=EDGE_LOOP('',(#261));
#220=EDGE_LOOP('',(#262));
#221=EDGE_LOOP('',(#263));
#222=EDGE_LOOP('',(#264));
#223=EDGE_LOOP('',(#265));
#224=EDGE_LOOP('',(#266));
#225=EDGE_LOOP('',(#267));
#226=EDGE_LOOP('',(#268));
#227=EDGE_LOOP('',(#269));
#228=EDGE_LOOP('',(#270));
#229=ORIENTED_EDGE('',*,*,#293,.T.);
#230=ORIENTED_EDGE('',*,*,#294,.T.);
#231=ORIENTED_EDGE('',*,*,#295,.T.);
#232=ORIENTED_EDGE('',*,*,#296,.T.);
#233=ORIENTED_EDGE('',*,*,#297,.F.);
#234=ORIENTED_EDGE('',*,*,#297,.T.);
#235=ORIENTED_EDGE('',*,*,#298,.F.);
#236=ORIENTED_EDGE('',*,*,#298,.T.);
#237=ORIENTED_EDGE('',*,*,#299,.F.);
#238=ORIENTED_EDGE('',*,*,#299,.T.);
#239=ORIENTED_EDGE('',*,*,#300,.F.);
#240=ORIENTED_EDGE('',*,*,#295,.F.);
#241=ORIENTED_EDGE('',*,*,#300,.T.);
#242=ORIENTED_EDGE('',*,*,#301,.F.);
#243=ORIENTED_EDGE('',*,*,#302,.F.);
#244=ORIENTED_EDGE('',*,*,#302,.T.);
#245=ORIENTED_EDGE('',*,*,#303,.F.);
#246=ORIENTED_EDGE('',*,*,#303,.T.);
#247=ORIENTED_EDGE('',*,*,#304,.F.);
#248=ORIENTED_EDGE('',*,*,#304,.T.);
#249=ORIENTED_EDGE('',*,*,#305,.F.);
#250=ORIENTED_EDGE('',*,*,#305,.T.);
#251=ORIENTED_EDGE('',*,*,#294,.F.);
#252=ORIENTED_EDGE('',*,*,#293,.F.);
#253=ORIENTED_EDGE('',*,*,#306,.T.);
#254=ORIENTED_EDGE('',*,*,#306,.F.);
#255=ORIENTED_EDGE('',*,*,#307,.T.);
#256=ORIENTED_EDGE('',*,*,#307,.F.);
#257=ORIENTED_EDGE('',*,*,#308,.T.);
#258=ORIENTED_EDGE('',*,*,#308,.F.);
#259=ORIENTED_EDGE('',*,*,#309,.T.);
#260=ORIENTED_EDGE('',*,*,#301,.T.);
#261=ORIENTED_EDGE('',*,*,#309,.F.);
#262=ORIENTED_EDGE('',*,*,#310,.T.);
#263=ORIENTED_EDGE('',*,*,#310,.F.);
#264=ORIENTED_EDGE('',*,*,#311,.T.);
#265=ORIENTED_EDGE('',*,*,#311,.F.);
#266=ORIENTED_EDGE('',*,*,#312,.T.);
#267=ORIENTED_EDGE('',*,*,#312,.F.);
#268=ORIENTED_EDGE('',*,*,#313,.T.);
#269=ORIENTED_EDGE('',*,*,#296,.F.);
#270=ORIENTED_EDGE('',*,*,#313,.F.);
#271=VERTEX_POINT('',#461);
#272=VERTEX_POINT('',#463);
#273=VERTEX_POINT('',#482);
#274=VERTEX_POINT('',#501);
#275=VERTEX_POINT('',#504);
#276=VERTEX_POINT('',#507);
#277=VERTEX_POINT('',#510);
#278=VERTEX_POINT('',#513);
#279=VERTEX_POINT('',#517);
#280=VERTEX_POINT('',#519);
#281=VERTEX_POINT('',#522);
#282=VERTEX_POINT('',#525);
#283=VERTEX_POINT('',#528);
#284=VERTEX_POINT('',#532);
#285=VERTEX_POINT('',#534);
#286=VERTEX_POINT('',#537);
#287=VERTEX_POINT('',#540);
#288=VERTEX_POINT('',#543);
#289=VERTEX_POINT('',#547);
#290=VERTEX_POINT('',#550);
#291=VERTEX_POINT('',#553);
#292=VERTEX_POINT('',#556);
#293=EDGE_CURVE('',#271,#271,#314,.T.);
#294=EDGE_CURVE('',#272,#272,#315,.T.);
#295=EDGE_CURVE('',#273,#273,#142,.T.);
#296=EDGE_CURVE('',#274,#274,#143,.T.);
#297=EDGE_CURVE('',#275,#275,#316,.T.);
#298=EDGE_CURVE('',#276,#276,#317,.T.);
#299=EDGE_CURVE('',#277,#277,#318,.T.);
#300=EDGE_CURVE('',#278,#278,#319,.T.);
#301=EDGE_CURVE('',#279,#279,#320,.T.);
#302=EDGE_CURVE('',#280,#280,#321,.T.);
#303=EDGE_CURVE('',#281,#281,#322,.T.);
#304=EDGE_CURVE('',#282,#282,#323,.T.);
#305=EDGE_CURVE('',#283,#283,#324,.T.);
#306=EDGE_CURVE('',#285,#285,#325,.T.);
#307=EDGE_CURVE('',#286,#286,#326,.T.);
#308=EDGE_CURVE('',#287,#287,#327,.T.);
#309=EDGE_CURVE('',#288,#288,#328,.T.);
#310=EDGE_CURVE('',#289,#289,#329,.T.);
#311=EDGE_CURVE('',#290,#290,#330,.T.);
#312=EDGE_CURVE('',#291,#291,#331,.T.);
#313=EDGE_CURVE('',#292,#292,#332,.T.);
#314=CIRCLE('',#334,26.0027637386298);
#315=CIRCLE('',#335,31.7459464479033);
#316=CIRCLE('',#337,16.);
#317=CIRCLE('',#339,11.);
#318=CIRCLE('',#341,10.);
#319=CIRCLE('',#343,7.49999999999997);
#320=CIRCLE('',#346,7.56340796824562);
#321=CIRCLE('',#347,24.5634079682456);
#322=CIRCLE('',#349,24.5634079682457);
#323=CIRCLE('',#351,32.5634079682456);
#324=CIRCLE('',#353,32.5634079682456);
#325=CIRCLE('',#357,6.56340796824562);
#326=CIRCLE('',#359,6.56340796824562);
#327=CIRCLE('',#361,7.0634079682455);
#328=CIRCLE('',#363,7.0634079682455);
#329=CIRCLE('',#366,16.);
#330=CIRCLE('',#368,11.);
#331=CIRCLE('',#370,10.);
#332=CIRCLE('',#372,7.49999999999999);
#333=AXIS2_PLACEMENT_3D('',#459,#375,#376);
#334=AXIS2_PLACEMENT_3D('',#460,#377,#378);
#335=AXIS2_PLACEMENT_3D('',#462,#379,#380);
#336=AXIS2_PLACEMENT_3D('',#502,#381,#382);
#337=AXIS2_PLACEMENT_3D('',#503,#383,#384);
#338=AXIS2_PLACEMENT_3D('',#505,#385,#386);
#339=AXIS2_PLACEMENT_3D('',#506,#387,#388);
#340=AXIS2_PLACEMENT_3D('',#508,#389,#390);
#341=AXIS2_PLACEMENT_3D('',#509,#391,#392);
#342=AXIS2_PLACEMENT_3D('',#511,#393,#394);
#343=AXIS2_PLACEMENT_3D('',#512,#395,#396);
#344=AXIS2_PLACEMENT_3D('',#514,#397,#398);
#345=AXIS2_PLACEMENT_3D('',#515,#399,#400);
#346=AXIS2_PLACEMENT_3D('',#516,#401,#402);
#347=AXIS2_PLACEMENT_3D('',#518,#403,#404);
#348=AXIS2_PLACEMENT_3D('',#520,#405,#406);
#349=AXIS2_PLACEMENT_3D('',#521,#407,#408);
#350=AXIS2_PLACEMENT_3D('',#523,#409,#410);
#351=AXIS2_PLACEMENT_3D('',#524,#411,#412);
#352=AXIS2_PLACEMENT_3D('',#526,#413,#414);
#353=AXIS2_PLACEMENT_3D('',#527,#415,#416);
#354=AXIS2_PLACEMENT_3D('',#529,#417,#418);
#355=AXIS2_PLACEMENT_3D('',#530,#419,#420);
#356=AXIS2_PLACEMENT_3D('',#531,#421,#422);
#357=AXIS2_PLACEMENT_3D('',#533,#423,#424);
#358=AXIS2_PLACEMENT_3D('',#535,#425,#426);
#359=AXIS2_PLACEMENT_3D('',#536,#427,#428);
#360=AXIS2_PLACEMENT_3D('',#538,#429,#430);
#361=AXIS2_PLACEMENT_3D('',#539,#431,#432);
#362=AXIS2_PLACEMENT_3D('',#541,#433,#434);
#363=AXIS2_PLACEMENT_3D('',#542,#435,#436);
#364=AXIS2_PLACEMENT_3D('',#544,#437,#438);
#365=AXIS2_PLACEMENT_3D('',#545,#439,#440);
#366=AXIS2_PLACEMENT_3D('',#546,#441,#442);
#367=AXIS2_PLACEMENT_3D('',#548,#443,#444);
#368=AXIS2_PLACEMENT_3D('',#549,#445,#446);
#369=AXIS2_PLACEMENT_3D('',#551,#447,#448);
#370=AXIS2_PLACEMENT_3D('',#552,#449,#450);
#371=AXIS2_PLACEMENT_3D('',#554,#451,#452);
#372=AXIS2_PLACEMENT_3D('',#555,#453,#454);
#373=AXIS2_PLACEMENT_3D('',#557,#455,#456);
#374=AXIS2_PLACEMENT_3D('',#558,#457,#458);
#375=DIRECTION('',(0.,0.,1.));
#376=DIRECTION('',(1.,0.,0.));
#377=DIRECTION('',(0.,-1.,0.));
#378=DIRECTION('',(0.,0.,1.));
#379=DIRECTION('',(0.,1.,0.));
#380=DIRECTION('',(0.,0.,1.));
#381=DIRECTION('',(0.,-1.,0.));
#382=DIRECTION('',(0.,7.0140107905995E-017,-1.));
#383=DIRECTION('',(0.939692620785908,-0.342020143325669,0.));
#384=DIRECTION('',(0.342020143325669,0.939692620785907,0.));
#385=DIRECTION('',(0.939692620785909,-0.342020143325669,0.));
#386=DIRECTION('',(-0.342020143325669,-0.939692620785909,0.));
#387=DIRECTION('',(0.939692620785908,-0.342020143325669,0.));
#388=DIRECTION('',(0.342020143325669,0.939692620785907,0.));
#389=DIRECTION('',(-0.939692620785908,0.342020143325669,0.));
#390=DIRECTION('',(-0.342020143325667,-0.939692620785908,0.));
#391=DIRECTION('',(0.939692620785908,-0.342020143325669,0.));
#392=DIRECTION('',(0.342020143325671,0.939692620785907,0.));
#393=DIRECTION('',(-0.939692620785908,0.342020143325669,0.));
#394=DIRECTION('',(-0.342020143325669,-0.939692620785908,0.));
#395=DIRECTION('',(0.939692620785908,-0.342020143325669,0.));
#396=DIRECTION('',(0.342020143325666,0.939692620785908,0.));
#397=DIRECTION('',(0.939692620785908,-0.342020143325669,0.));
#398=DIRECTION('',(0.342020143325669,0.939692620785908,0.));
#399=DIRECTION('',(0.939692620785908,-0.342020143325669,0.));
#400=DIRECTION('',(0.342020143325672,0.939692620785907,0.));
#401=DIRECTION('',(0.,-1.,0.));
#402=DIRECTION('',(0.,0.,-1.));
#403=DIRECTION('',(0.,1.,0.));
#404=DIRECTION('',(0.,0.,1.));
#405=DIRECTION('',(0.,-1.,0.));
#406=DIRECTION('',(0.,0.,-1.));
#407=DIRECTION('',(0.,1.,0.));
#408=DIRECTION('',(0.,0.,1.));
#409=DIRECTION('',(0.,1.,0.));
#410=DIRECTION('',(0.,0.,1.));
#411=DIRECTION('',(0.,1.,0.));
#412=DIRECTION('',(0.,0.,1.));
#413=DIRECTION('',(0.,-1.,0.));
#414=DIRECTION('',(0.,0.,-1.));
#415=DIRECTION('',(0.,1.,0.));
#416=DIRECTION('',(0.,0.,1.));
#417=DIRECTION('',(0.,1.,0.));
#418=DIRECTION('',(0.,0.,1.));
#419=DIRECTION('',(0.,-1.,0.));
#420=DIRECTION('',(0.,7.0140107905995E-017,-1.));
#421=DIRECTION('',(0.,1.,0.));
#422=DIRECTION('',(0.,0.,1.));
#423=DIRECTION('',(0.,-1.,0.));
#424=DIRECTION('',(0.,0.,-1.));
#425=DIRECTION('',(0.,-1.,0.));
#426=DIRECTION('',(0.,-3.19283891361194E-017,-1.));
#427=DIRECTION('',(0.,-1.,0.));
#428=DIRECTION('',(0.,0.,-1.));
#429=DIRECTION('',(0.,-1.,0.));
#430=DIRECTION('',(0.,0.,-1.));
#431=DIRECTION('',(0.,-1.,0.));
#432=DIRECTION('',(0.,0.,-1.));
#433=DIRECTION('',(0.,1.,0.));
#434=DIRECTION('',(0.,0.,1.));
#435=DIRECTION('',(0.,-1.,0.));
#436=DIRECTION('',(0.,0.,-1.));
#437=DIRECTION('',(0.,-1.,0.));
#438=DIRECTION('',(0.,0.,-1.));
#439=DIRECTION('',(0.,-1.,0.));
#440=DIRECTION('',(0.,-5.51218034455641E-017,-1.));
#441=DIRECTION('',(0.939692620785908,0.342020143325669,0.));
#442=DIRECTION('',(-0.342020143325669,0.939692620785907,0.));
#443=DIRECTION('',(0.939692620785906,0.342020143325668,0.));
#444=DIRECTION('',(0.342020143325671,-0.939692620785909,0.));
#445=DIRECTION('',(0.939692620785908,0.342020143325669,0.));
#446=DIRECTION('',(-0.342020143325669,0.939692620785908,0.));
#447=DIRECTION('',(0.939692620785908,0.342020143325669,0.));
#448=DIRECTION('',(-0.342020143325671,0.939692620785908,0.));
#449=DIRECTION('',(0.939692620785908,0.342020143325669,0.));
#450=DIRECTION('',(-0.342020143325671,0.939692620785907,0.));
#451=DIRECTION('',(0.939692620785908,0.342020143325669,0.));
#452=DIRECTION('',(-0.342020143325669,0.939692620785908,0.));
#453=DIRECTION('',(0.939692620785908,0.342020143325669,0.));
#454=DIRECTION('',(-0.342020143325673,0.939692620785905,0.));
#455=DIRECTION('',(0.939692620785908,0.342020143325669,0.));
#456=DIRECTION('',(-0.342020143325669,0.939692620785908,0.));
#457=DIRECTION('',(0.939692620785908,0.342020143325669,0.));
#458=DIRECTION('',(-0.342020143325665,0.939692620785912,0.));
#459=CARTESIAN_POINT('',(0.,0.,0.));
#460=CARTESIAN_POINT('',(369.,262.185603511871,0.));
#461=CARTESIAN_POINT('',(369.,262.185603511871,26.0027637386298));
#462=CARTESIAN_POINT('',(369.,246.406338702459,0.));
#463=CARTESIAN_POINT('',(369.,246.406338702459,31.7459464479033));
#464=CARTESIAN_POINT('',(337.857030802225,247.361032562612,-4.24594846410283));
#465=CARTESIAN_POINT('',(339.301770661595,249.956498142546,-6.89185542116312));
#466=CARTESIAN_POINT('',(340.180641336099,251.746436634323,-7.59128964083835));
#467=CARTESIAN_POINT('',(341.515898706534,255.434764984564,-7.38875560317865));
#468=CARTESIAN_POINT('',(341.951991272706,257.308722703782,-6.47509558981344));
#469=CARTESIAN_POINT('',(342.382225714154,259.935981074858,-3.57846709141868));
#470=CARTESIAN_POINT('',(342.424883984695,260.683838654229,-1.60068073625204));
#471=CARTESIAN_POINT('',(342.406013210303,260.475377138868,2.36503587195901));
#472=CARTESIAN_POINT('',(342.339174923127,259.525631767787,4.25803842674586));
#473=CARTESIAN_POINT('',(341.808119452531,256.645061426887,6.8692225769994));
#474=CARTESIAN_POINT('',(341.294735722497,254.707441661603,7.58931434748749));
#475=CARTESIAN_POINT('',(339.864190331684,251.045154378801,7.39178035209679));
#476=CARTESIAN_POINT('',(338.975542664811,249.340400922147,6.48527121151399));
#477=CARTESIAN_POINT('',(337.644055367415,247.02404033656,3.5736220067281));
#478=CARTESIAN_POINT('',(337.236698831007,246.416834194158,1.57917567743869));
#479=CARTESIAN_POINT('',(337.345991561307,246.588279122603,-2.33821924042291));
#480=CARTESIAN_POINT('',(337.857030802225,247.361032562612,-4.24594846410283));
#481=CARTESIAN_POINT('',(339.301770661595,249.956498142546,-6.89185542116312));
#482=CARTESIAN_POINT('',(338.57940073191,248.658765352579,-5.56890194263296));
#483=CARTESIAN_POINT('',(398.698221035379,249.956513058876,-6.89187062738378));
#484=CARTESIAN_POINT('',(400.142977500801,247.361017646282,-4.24593325788224));
#485=CARTESIAN_POINT('',(400.65288162659,246.590048075992,-2.34696449878104));
#486=CARTESIAN_POINT('',(400.764084739349,246.415603680163,1.57571636956391));
#487=CARTESIAN_POINT('',(400.354468410281,247.026891379369,3.57469610551891));
#488=CARTESIAN_POINT('',(399.030201953762,249.330125150145,6.47485620630642));
#489=CARTESIAN_POINT('',(398.147313223178,251.017694343223,7.38728954161974));
#490=CARTESIAN_POINT('',(396.701954577924,254.713936160462,7.59265731163209));
#491=CARTESIAN_POINT('',(396.193115906616,256.639531382496,6.87246437657277));
#492=CARTESIAN_POINT('',(395.661020551196,259.523403778827,4.26182438252612));
#493=CARTESIAN_POINT('',(395.594233996456,260.472672714911,2.35714780883377));
#494=CARTESIAN_POINT('',(395.574979795669,260.685317178404,-1.56981760816059));
#495=CARTESIAN_POINT('',(395.616380800657,259.945848970594,-3.56510973498508));
#496=CARTESIAN_POINT('',(396.047958502223,257.307675465808,-6.47871964896661));
#497=CARTESIAN_POINT('',(396.483300416529,255.438186461047,-7.38692006326848));
#498=CARTESIAN_POINT('',(397.815869319636,251.754869750956,-7.59246892507386));
#499=CARTESIAN_POINT('',(398.698221035379,249.956513058876,-6.89187062738378));
#500=CARTESIAN_POINT('',(400.142977500801,247.361017646282,-4.24593325788224));
#501=CARTESIAN_POINT('',(399.42059926809,248.658765352579,-5.56890194263296));
#502=CARTESIAN_POINT('',(369.,246.406338702459,0.));
#503=CARTESIAN_POINT('',(217.521705011595,298.0662486817,0.));
#504=CARTESIAN_POINT('',(222.994027304805,313.101330614275,0.));
#505=CARTESIAN_POINT('',(228.798016461026,293.962006961792,0.));
#506=CARTESIAN_POINT('',(305.382965055077,266.08736528075,0.));
#507=CARTESIAN_POINT('',(309.145186631659,276.423984109395,0.));
#508=CARTESIAN_POINT('',(305.382965055077,266.08736528075,0.));
#509=CARTESIAN_POINT('',(306.322657675863,265.745345137424,0.));
#510=CARTESIAN_POINT('',(309.74285910912,275.142271345283,0.));
#511=CARTESIAN_POINT('',(306.322657675863,265.745345137424,0.));
#512=CARTESIAN_POINT('',(306.322657675863,265.745345137424,0.));
#513=CARTESIAN_POINT('',(308.887808750806,272.793039793319,0.));
#514=CARTESIAN_POINT('',(303.75750660092,258.69765048153,0.));
#515=CARTESIAN_POINT('',(371.631294820484,241.97494517629,0.));
#516=CARTESIAN_POINT('',(369.,230.185603511871,0.));
#517=CARTESIAN_POINT('',(369.,230.185603511871,-7.56340796824562));
#518=CARTESIAN_POINT('',(369.,230.185603511871,0.));
#519=CARTESIAN_POINT('',(369.,230.185603511871,24.5634079682456));
#520=CARTESIAN_POINT('',(393.563407968246,230.185603511871,0.));
#521=CARTESIAN_POINT('',(369.,231.185603511871,0.));
#522=CARTESIAN_POINT('',(369.,231.185603511871,24.5634079682457));
#523=CARTESIAN_POINT('',(369.,271.5,0.));
#524=CARTESIAN_POINT('',(369.,231.185603511871,0.));
#525=CARTESIAN_POINT('',(369.,231.185603511871,32.5634079682456));
#526=CARTESIAN_POINT('',(401.563407968245,231.185603511871,0.));
#527=CARTESIAN_POINT('',(369.,244.160381634063,0.));
#528=CARTESIAN_POINT('',(369.,244.160381634063,32.5634079682456));
#529=CARTESIAN_POINT('',(369.,271.5,0.));
#530=CARTESIAN_POINT('',(369.,246.406338702459,0.));
#531=CARTESIAN_POINT('',(369.063407968245,262.185603511871,0.));
#532=CARTESIAN_POINT('',(369.,258.974988869139,0.));
#533=CARTESIAN_POINT('',(369.,255.185603511871,0.));
#534=CARTESIAN_POINT('',(369.,255.185603511871,-6.56340796824562));
#535=CARTESIAN_POINT('',(369.,255.185603511871,0.));
#536=CARTESIAN_POINT('',(369.,252.,0.));
#537=CARTESIAN_POINT('',(369.,252.,-6.56340796824562));
#538=CARTESIAN_POINT('',(369.,226.5,0.));
#539=CARTESIAN_POINT('',(369.,252.,0.));
#540=CARTESIAN_POINT('',(369.,252.,-7.0634079682455));
#541=CARTESIAN_POINT('',(376.063407968245,252.,0.));
#542=CARTESIAN_POINT('',(369.,230.685603511871,0.));
#543=CARTESIAN_POINT('',(369.,230.685603511871,-7.0634079682455));
#544=CARTESIAN_POINT('',(369.,226.5,0.));
#545=CARTESIAN_POINT('',(369.,230.685603511871,0.));
#546=CARTESIAN_POINT('',(520.478294988405,298.0662486817,0.));
#547=CARTESIAN_POINT('',(515.005972695195,313.101330614275,0.));
#548=CARTESIAN_POINT('',(509.201983538974,293.962006961792,0.));
#549=CARTESIAN_POINT('',(432.617034944923,266.08736528075,0.));
#550=CARTESIAN_POINT('',(428.854813368341,276.423984109395,0.));
#551=CARTESIAN_POINT('',(432.617034944923,266.08736528075,0.));
#552=CARTESIAN_POINT('',(431.677342324137,265.745345137424,0.));
#553=CARTESIAN_POINT('',(428.25714089088,275.142271345283,0.));
#554=CARTESIAN_POINT('',(431.677342324137,265.745345137424,0.));
#555=CARTESIAN_POINT('',(431.677342324137,265.745345137424,0.));
#556=CARTESIAN_POINT('',(429.112191249195,272.793039793319,0.));
#557=CARTESIAN_POINT('',(434.24249339908,258.69765048153,0.));
#558=CARTESIAN_POINT('',(534.103837989801,303.025540759922,0.));
#559=(
GEOMETRIC_REPRESENTATION_CONTEXT(3)
GLOBAL_UNCERTAINTY_ASSIGNED_CONTEXT((#560))
GLOBAL_UNIT_ASSIGNED_CONTEXT((#566,#562,#561))
REPRESENTATION_CONTEXT('TA160','TOP_LEVEL_ASSEMBLY_PART')
);
#560=UNCERTAINTY_MEASURE_WITH_UNIT(LENGTH_MEASURE(0.0508),#566,
'DISTANCE_ACCURACY_VALUE','Maximum Tolerance applied to model');
#561=(
NAMED_UNIT(*)
SI_UNIT($,.STERADIAN.)
SOLID_ANGLE_UNIT()
);
#562=(
CONVERSION_BASED_UNIT('DEGREE',#564)
NAMED_UNIT(#563)
PLANE_ANGLE_UNIT()
);
#563=DIMENSIONAL_EXPONENTS(0.,0.,0.,0.,0.,0.,0.);
#564=PLANE_ANGLE_MEASURE_WITH_UNIT(PLANE_ANGLE_MEASURE(0.0174532925),#565);
#565=(
NAMED_UNIT(*)
PLANE_ANGLE_UNIT()
SI_UNIT($,.RADIAN.)
);
#566=(
LENGTH_UNIT()
NAMED_UNIT(*)
SI_UNIT(.MILLI.,.METRE.)
);
ENDSEC;
END-ISO-10303-21;
